ISO-10303-21;
HEADER;
FILE_DESCRIPTION (( 'STEP AP214' ),
    '1' );
FILE_NAME ('7400467_KSTP1.stp',
    '2016-10-12T07:32:06',
    ( '' ),
    ( '' ),
    'SwSTEP 2.0',
    'SolidWorks 2016',
    '' );
FILE_SCHEMA (( 'AUTOMOTIVE_DESIGN' ));
ENDSEC;

DATA;
#1 = ORIENTED_EDGE ( 'NONE', *, *, #208, .T. ) ;
#2 = CARTESIAN_POINT ( 'NONE',  ( 123.7500000000000300, -4.000000000000000000, 123.7499999999999900 ) ) ;
#3 = SURFACE_STYLE_USAGE ( .BOTH. , #157 ) ;
#4 = LINE ( 'NONE', #101, #76 ) ;
#5 = VERTEX_POINT ( 'NONE', #265 ) ;
#6 = APPLICATION_PROTOCOL_DEFINITION ( 'draft international standard', 'automotive_design', 1998, #182 ) ;
#7 =( LENGTH_UNIT ( ) NAMED_UNIT ( * ) SI_UNIT ( .MILLI., .METRE. ) );
#8 = EDGE_LOOP ( 'NONE', ( #1, #144, #160, #38 ) ) ;
#9 = CARTESIAN_POINT ( 'NONE',  ( 140.9999999999999700, 0.0000000000000000000, -141.0000000000000000 ) ) ;
#10 = CARTESIAN_POINT ( 'NONE',  ( -123.7500000000000600, 0.0000000000000000000, -123.7500000000000000 ) ) ;
#11 = EDGE_CURVE ( 'NONE', #202, #235, #201, .T. ) ;
#12 = PLANE ( 'NONE',  #192 ) ;
#13 =( LENGTH_UNIT ( ) NAMED_UNIT ( * ) SI_UNIT ( .MILLI., .METRE. ) );
#14 = ORIENTED_EDGE ( 'NONE', *, *, #272, .T. ) ;
#15 = DIRECTION ( 'NONE',  ( -1.000000000000000000, 0.0000000000000000000, 2.242874797222538100E-016 ) ) ;
#16 = ADVANCED_FACE ( 'NONE', ( #49 ), #105, .F. ) ;
#17 = CARTESIAN_POINT ( 'NONE',  ( 140.9999999999999700, 0.0000000000000000000, -141.0000000000000000 ) ) ;
#18 = ORIENTED_EDGE ( 'NONE', *, *, #301, .F. ) ;
#19 = FILL_AREA_STYLE ('',( #172 ) ) ;
#20 = EDGE_LOOP ( 'NONE', ( #84, #94, #82, #240 ) ) ;
#21 = CARTESIAN_POINT ( 'NONE',  ( -141.0000000000000000, 0.0000000000000000000, 141.0000000000000000 ) ) ;
#22 = EDGE_CURVE ( 'NONE', #258, #78, #4, .T. ) ;
#23 = ORIENTED_EDGE ( 'NONE', *, *, #136, .T. ) ;
#24 = ORIENTED_EDGE ( 'NONE', *, *, #266, .T. ) ;
#25 = PRESENTATION_STYLE_ASSIGNMENT (( #3 ) ) ;
#26 = ORIENTED_EDGE ( 'NONE', *, *, #337, .F. ) ;
#27 = LINE ( 'NONE', #213, #283 ) ;
#28 = DIRECTION ( 'NONE',  ( 1.000000000000000000, 0.0000000000000000000, 0.0000000000000000000 ) ) ;
#29 = ORIENTED_EDGE ( 'NONE', *, *, #257, .F. ) ;
#30 = DIRECTION ( 'NONE',  ( -2.242874797222538100E-016, 0.0000000000000000000, -1.000000000000000000 ) ) ;
#31 = VERTEX_POINT ( 'NONE', #205 ) ;
#32 = PRODUCT_CONTEXT ( 'NONE', #329, 'mechanical' ) ;
#33 = DIRECTION ( 'NONE',  ( -1.000000000000000000, 0.0000000000000000000, 9.842402700577629600E-017 ) ) ;
#34 = ADVANCED_BREP_SHAPE_REPRESENTATION ( '7400467_KSTP1', ( #335, #41 ), #338 ) ;
#35 = CARTESIAN_POINT ( 'NONE',  ( 123.7500000000000000, -4.000000000000000000, -123.7500000000000100 ) ) ;
#36 = LINE ( 'NONE', #312, #303 ) ;
#37 = DIRECTION ( 'NONE',  ( -1.000000000000000000, 0.0000000000000000000, 2.242874797222538100E-016 ) ) ;
#38 = ORIENTED_EDGE ( 'NONE', *, *, #80, .T. ) ;
#39 = VECTOR ( 'NONE', #296, 1000.000000000000000 ) ;
#40 = FACE_OUTER_BOUND ( 'NONE', #237, .T. ) ;
#41 = AXIS2_PLACEMENT_3D ( 'NONE', #280, #212, #233 ) ;
#42 = PLANE ( 'NONE',  #193 ) ;
#43 = ORIENTED_EDGE ( 'NONE', *, *, #114, .T. ) ;
#44 = VECTOR ( 'NONE', #247, 1000.000000000000000 ) ;
#45 = LINE ( 'NONE', #85, #90 ) ;
#46 = SURFACE_STYLE_USAGE ( .BOTH. , #191 ) ;
#47 = CARTESIAN_POINT ( 'NONE',  ( -141.0000000000000000, -4.000000000000000000, 141.0000000000000000 ) ) ;
#48 = ORIENTED_EDGE ( 'NONE', *, *, #266, .F. ) ;
#49 = FACE_OUTER_BOUND ( 'NONE', #196, .T. ) ;
#50 = LINE ( 'NONE', #2, #102 ) ;
#51 = ORIENTED_EDGE ( 'NONE', *, *, #11, .T. ) ;
#52 = FACE_OUTER_BOUND ( 'NONE', #325, .T. ) ;
#53 = PRODUCT_DEFINITION ( 'UNKNOWN', '', #75, #288 ) ;
#54 = DIRECTION ( 'NONE',  ( 1.000000000000000000, -0.0000000000000000000, -0.0000000000000000000 ) ) ;
#55 = ORIENTED_EDGE ( 'NONE', *, *, #257, .T. ) ;
#56 = CARTESIAN_POINT ( 'NONE',  ( 123.7500000000000000, 0.0000000000000000000, -123.7500000000000100 ) ) ;
#57 = UNCERTAINTY_MEASURE_WITH_UNIT (LENGTH_MEASURE( 1.000000000000000100E-005 ), #7, 'distance_accuracy_value', 'NONE');
#58 = CARTESIAN_POINT ( 'NONE',  ( -141.0000000000000000, -4.000000000000000000, -141.0000000000000000 ) ) ;
#59 = CARTESIAN_POINT ( 'NONE',  ( -141.0000000000000000, -4.000000000000000000, -141.0000000000000000 ) ) ;
#60 = LINE ( 'NONE', #93, #306 ) ;
#61 = CARTESIAN_POINT ( 'NONE',  ( -141.0000000000000000, -4.000000000000000000, 141.0000000000000000 ) ) ;
#62 = AXIS2_PLACEMENT_3D ( 'NONE', #128, #30, #15 ) ;
#63 =( NAMED_UNIT ( * ) PLANE_ANGLE_UNIT ( ) SI_UNIT ( $, .RADIAN. ) );
#64 = ORIENTED_EDGE ( 'NONE', *, *, #100, .F. ) ;
#65 = DIRECTION ( 'NONE',  ( 1.121437398611269600E-016, 0.0000000000000000000, 1.000000000000000000 ) ) ;
#66 = EDGE_LOOP ( 'NONE', ( #51, #264, #115, #209 ) ) ;
#67 = CARTESIAN_POINT ( 'NONE',  ( 140.9999999999999700, -4.000000000000000000, -141.0000000000000000 ) ) ;
#68 = ADVANCED_FACE ( 'NONE', ( #210 ), #149, .T. ) ;
#69 = CARTESIAN_POINT ( 'NONE',  ( 140.9999999999999700, -4.000000000000000000, -141.0000000000000000 ) ) ;
#70 = SURFACE_STYLE_FILL_AREA ( #19 ) ;
#71 =( NAMED_UNIT ( * ) PLANE_ANGLE_UNIT ( ) SI_UNIT ( $, .RADIAN. ) );
#72 = ORIENTED_EDGE ( 'NONE', *, *, #276, .F. ) ;
#73 = DIRECTION ( 'NONE',  ( 1.121437398611269600E-016, 0.0000000000000000000, 1.000000000000000000 ) ) ;
#74 = DIRECTION ( 'NONE',  ( 0.0000000000000000000, 1.000000000000000000, 0.0000000000000000000 ) ) ;
#75 = PRODUCT_DEFINITION_FORMATION_WITH_SPECIFIED_SOURCE ( 'ANY', '', #117, .NOT_KNOWN. ) ;
#76 = VECTOR ( 'NONE', #74, 1000.000000000000000 ) ;
#77 = VERTEX_POINT ( 'NONE', #299 ) ;
#78 = VERTEX_POINT ( 'NONE', #21 ) ;
#79 = VERTEX_POINT ( 'NONE', #174 ) ;
#80 = EDGE_CURVE ( 'NONE', #31, #147, #271, .T. ) ;
#81 = CARTESIAN_POINT ( 'NONE',  ( -141.0000000000000000, -4.000000000000000000, -141.0000000000000000 ) ) ;
#82 = ORIENTED_EDGE ( 'NONE', *, *, #11, .F. ) ;
#83 = CARTESIAN_POINT ( 'NONE',  ( -123.7500000000000600, -4.000000000000000000, -123.7499999999999600 ) ) ;
#84 = ORIENTED_EDGE ( 'NONE', *, *, #231, .F. ) ;
#85 = CARTESIAN_POINT ( 'NONE',  ( 123.7500000000000000, 0.0000000000000000000, -123.7500000000000100 ) ) ;
#86 = DIRECTION ( 'NONE',  ( 0.0000000000000000000, 1.000000000000000000, 0.0000000000000000000 ) ) ;
#87 = CARTESIAN_POINT ( 'NONE',  ( -141.0000000000000000, -4.000000000000000000, -141.0000000000000000 ) ) ;
#88 = CARTESIAN_POINT ( 'NONE',  ( -123.7500000000000300, 0.0000000000000000000, 123.7499999999999900 ) ) ;
#89 = PRODUCT_RELATED_PRODUCT_CATEGORY ( 'part', '', ( #117 ) ) ;
#90 = VECTOR ( 'NONE', #224, 1000.000000000000000 ) ;
#91 = CARTESIAN_POINT ( 'NONE',  ( -123.7500000000000300, -4.000000000000000000, 123.7499999999999900 ) ) ;
#92 = ADVANCED_FACE ( 'NONE', ( #151 ), #263, .F. ) ;
#93 = CARTESIAN_POINT ( 'NONE',  ( 123.7500000000000000, -4.000000000000000000, -123.7500000000000100 ) ) ;
#94 = ORIENTED_EDGE ( 'NONE', *, *, #129, .F. ) ;
#95 = PRESENTATION_STYLE_ASSIGNMENT (( #46 ) ) ;
#96 = UNCERTAINTY_MEASURE_WITH_UNIT (LENGTH_MEASURE( 1.000000000000000100E-005 ), #13, 'distance_accuracy_value', 'NONE');
#97 = VECTOR ( 'NONE', #217, 1000.000000000000000 ) ;
#98 = AXIS2_PLACEMENT_3D ( 'NONE', #197, #120, #99 ) ;
#99 = DIRECTION ( 'NONE',  ( 1.000000000000000000, 0.0000000000000000000, -0.0000000000000000000 ) ) ;
#100 = EDGE_CURVE ( 'NONE', #5, #78, #27, .T. ) ;
#101 = CARTESIAN_POINT ( 'NONE',  ( -141.0000000000000000, -4.000000000000000000, 141.0000000000000000 ) ) ;
#102 = VECTOR ( 'NONE', #54, 1000.000000000000000 ) ;
#103 = ORIENTED_EDGE ( 'NONE', *, *, #301, .T. ) ;
#104 = ORIENTED_EDGE ( 'NONE', *, *, #292, .T. ) ;
#105 = PLANE ( 'NONE',  #62 ) ;
#106 = ORIENTED_EDGE ( 'NONE', *, *, #268, .T. ) ;
#107 = LINE ( 'NONE', #9, #44 ) ;
#108 = DIRECTION ( 'NONE',  ( -1.000000000000000000, -0.0000000000000000000, -0.0000000000000000000 ) ) ;
#109 =( NAMED_UNIT ( * ) PLANE_ANGLE_UNIT ( ) SI_UNIT ( $, .RADIAN. ) );
#110 = ORIENTED_EDGE ( 'NONE', *, *, #250, .T. ) ;
#111 = DIRECTION ( 'NONE',  ( 1.000000000000000000, 0.0000000000000000000, -0.0000000000000000000 ) ) ;
#112 = ADVANCED_FACE ( 'NONE', ( #298, #158 ), #330, .F. ) ;
#113 = DIRECTION ( 'NONE',  ( -1.121437398611269300E-016, -0.0000000000000000000, -1.000000000000000000 ) ) ;
#114 = EDGE_CURVE ( 'NONE', #77, #153, #177, .T. ) ;
#115 = ORIENTED_EDGE ( 'NONE', *, *, #292, .F. ) ;
#116 = VECTOR ( 'NONE', #108, 1000.000000000000000 ) ;
#117 = PRODUCT ( '7400467_KSTP1', '7400467_KSTP1', '', ( #32 ) ) ;
#118 = EDGE_CURVE ( 'NONE', #154, #300, #60, .T. ) ;
#119 = VERTEX_POINT ( 'NONE', #17 ) ;
#120 = DIRECTION ( 'NONE',  ( 0.0000000000000000000, 0.0000000000000000000, 1.000000000000000000 ) ) ;
#121 = ORIENTED_EDGE ( 'NONE', *, *, #231, .T. ) ;
#122 = CLOSED_SHELL ( 'NONE', ( #286, #324, #141, #68, #112, #227, #16, #206, #189, #92 ) ) ;
#123 = VECTOR ( 'NONE', #113, 1000.000000000000000 ) ;
#124 = AXIS2_PLACEMENT_3D ( 'NONE', #140, #282, #111 ) ;
#125 = AXIS2_PLACEMENT_3D ( 'NONE', #333, #236, #73 ) ;
#126 = VECTOR ( 'NONE', #86, 1000.000000000000000 ) ;
#127 = ORIENTED_EDGE ( 'NONE', *, *, #220, .T. ) ;
#128 = CARTESIAN_POINT ( 'NONE',  ( 123.7500000000000000, -4.000000000000000000, -123.7500000000000100 ) ) ;
#129 = EDGE_CURVE ( 'NONE', #235, #300, #248, .T. ) ;
#130 = DIRECTION ( 'NONE',  ( 0.0000000000000000000, 0.0000000000000000000, -1.000000000000000000 ) ) ;
#131 = ORIENTED_EDGE ( 'NONE', *, *, #118, .T. ) ;
#132 = FACE_OUTER_BOUND ( 'NONE', #143, .T. ) ;
#133 = DIRECTION ( 'NONE',  ( 1.121437398611269600E-016, 0.0000000000000000000, 1.000000000000000000 ) ) ;
#134 = CARTESIAN_POINT ( 'NONE',  ( 123.7500000000000000, -4.000000000000000000, -123.7500000000000100 ) ) ;
#135 = CARTESIAN_POINT ( 'NONE',  ( 140.9999999999999700, -4.000000000000000000, -141.0000000000000000 ) ) ;
#136 = EDGE_CURVE ( 'NONE', #290, #235, #252, .T. ) ;
#137 =( NAMED_UNIT ( * ) SI_UNIT ( $, .STERADIAN. ) SOLID_ANGLE_UNIT ( ) );
#138 = DIRECTION ( 'NONE',  ( -1.121437398611269300E-016, 0.0000000000000000000, -1.000000000000000000 ) ) ;
#139 = ORIENTED_EDGE ( 'NONE', *, *, #250, .F. ) ;
#140 = CARTESIAN_POINT ( 'NONE',  ( 123.7500000000000300, -4.000000000000000000, 123.7499999999999900 ) ) ;
#141 = ADVANCED_FACE ( 'NONE', ( #52 ), #42, .T. ) ;
#142 = LINE ( 'NONE', #135, #315 ) ;
#143 = EDGE_LOOP ( 'NONE', ( #164, #267, #175, #103 ) ) ;
#144 = ORIENTED_EDGE ( 'NONE', *, *, #316, .F. ) ;
#145 = VERTEX_POINT ( 'NONE', #91 ) ;
#146 = DIRECTION ( 'NONE',  ( 0.0000000000000000000, 1.000000000000000000, 0.0000000000000000000 ) ) ;
#147 = VERTEX_POINT ( 'NONE', #10 ) ;
#148 = DIRECTION ( 'NONE',  ( 9.842402700577629600E-017, 0.0000000000000000000, 1.000000000000000000 ) ) ;
#149 = PLANE ( 'NONE',  #98 ) ;
#150 = ORIENTED_EDGE ( 'NONE', *, *, #22, .T. ) ;
#151 = FACE_OUTER_BOUND ( 'NONE', #8, .T. ) ;
#152 = PRODUCT_DEFINITION_SHAPE ( 'NONE', 'NONE',  #53 ) ;
#153 = VERTEX_POINT ( 'NONE', #67 ) ;
#154 = VERTEX_POINT ( 'NONE', #35 ) ;
#155 = SURFACE_STYLE_FILL_AREA ( #242 ) ;
#156 = ORIENTED_EDGE ( 'NONE', *, *, #337, .T. ) ;
#157 = SURFACE_SIDE_STYLE ('',( #155 ) ) ;
#158 = FACE_OUTER_BOUND ( 'NONE', #287, .T. ) ;
#159 = FILL_AREA_STYLE_COLOUR ( '', #215 ) ;
#160 = ORIENTED_EDGE ( 'NONE', *, *, #272, .F. ) ;
#161 = DIRECTION ( 'NONE',  ( -9.842402700577629600E-017, 0.0000000000000000000, -1.000000000000000000 ) ) ;
#162 = VECTOR ( 'NONE', #180, 1000.000000000000000 ) ;
#163 = DIRECTION ( 'NONE',  ( 0.0000000000000000000, 1.000000000000000000, 0.0000000000000000000 ) ) ;
#164 = ORIENTED_EDGE ( 'NONE', *, *, #100, .T. ) ;
#165 = AXIS2_PLACEMENT_3D ( 'NONE', #251, #320, #138 ) ;
#166 = DIRECTION ( 'NONE',  ( 0.0000000000000000000, 1.000000000000000000, 0.0000000000000000000 ) ) ;
#167 = AXIS2_PLACEMENT_3D ( 'NONE', #47, #146, #294 ) ;
#168 = CARTESIAN_POINT ( 'NONE',  ( 141.0000000000000000, 0.0000000000000000000, 141.0000000000000000 ) ) ;
#169 = CARTESIAN_POINT ( 'NONE',  ( 123.7500000000000300, -4.000000000000000000, 123.7499999999999900 ) ) ;
#170 = EDGE_LOOP ( 'NONE', ( #245, #274, #24, #156 ) ) ;
#171 = LINE ( 'NONE', #246, #291 ) ;
#172 = FILL_AREA_STYLE_COLOUR ( '', #253 ) ;
#173 = VECTOR ( 'NONE', #203, 1000.000000000000000 ) ;
#174 = CARTESIAN_POINT ( 'NONE',  ( -141.0000000000000000, -4.000000000000000000, -141.0000000000000000 ) ) ;
#175 = ORIENTED_EDGE ( 'NONE', *, *, #276, .T. ) ;
#176 = LINE ( 'NONE', #179, #97 ) ;
#177 = LINE ( 'NONE', #69, #232 ) ;
#178 = ORIENTED_EDGE ( 'NONE', *, *, #268, .F. ) ;
#179 = CARTESIAN_POINT ( 'NONE',  ( -123.7500000000000300, -4.000000000000000000, 123.7499999999999900 ) ) ;
#180 = DIRECTION ( 'NONE',  ( 0.0000000000000000000, 1.000000000000000000, 0.0000000000000000000 ) ) ;
#181 = ORIENTED_EDGE ( 'NONE', *, *, #328, .T. ) ;
#182 = APPLICATION_CONTEXT ( 'automotive_design' ) ;
#183 = DIRECTION ( 'NONE',  ( 9.842402700577629600E-017, 0.0000000000000000000, 1.000000000000000000 ) ) ;
#184 = LINE ( 'NONE', #59, #116 ) ;
#185 = CARTESIAN_POINT ( 'NONE',  ( 123.7500000000000000, -4.000000000000000000, -123.7500000000000100 ) ) ;
#186 = VECTOR ( 'NONE', #285, 1000.000000000000000 ) ;
#187 = PLANE ( 'NONE',  #165 ) ;
#188 = DIRECTION ( 'NONE',  ( 1.000000000000000000, 0.0000000000000000000, -9.842402700577629600E-017 ) ) ;
#189 = ADVANCED_FACE ( 'NONE', ( #327 ), #322, .F. ) ;
#190 = LINE ( 'NONE', #225, #304 ) ;
#191 = SURFACE_SIDE_STYLE ('',( #70 ) ) ;
#192 = AXIS2_PLACEMENT_3D ( 'NONE', #204, #166, #317 ) ;
#193 = AXIS2_PLACEMENT_3D ( 'NONE', #228, #188, #161 ) ;
#194 = LINE ( 'NONE', #244, #126 ) ;
#195 = CARTESIAN_POINT ( 'NONE',  ( -123.7500000000000600, -4.000000000000000000, -123.7499999999999600 ) ) ;
#196 = EDGE_LOOP ( 'NONE', ( #121, #219, #241, #131 ) ) ;
#197 = CARTESIAN_POINT ( 'NONE',  ( -141.0000000000000000, -4.000000000000000000, 141.0000000000000000 ) ) ;
#198 = EDGE_LOOP ( 'NONE', ( #55, #334, #14, #104 ) ) ;
#199 = VERTEX_POINT ( 'NONE', #168 ) ;
#200 = PLANE ( 'NONE',  #254 ) ;
#201 = LINE ( 'NONE', #309, #289 ) ;
#202 = VERTEX_POINT ( 'NONE', #88 ) ;
#203 = DIRECTION ( 'NONE',  ( 1.000000000000000000, 0.0000000000000000000, 0.0000000000000000000 ) ) ;
#204 = CARTESIAN_POINT ( 'NONE',  ( -141.0000000000000000, 0.0000000000000000000, 141.0000000000000000 ) ) ;
#205 = CARTESIAN_POINT ( 'NONE',  ( -123.7500000000000600, -4.000000000000000000, -123.7499999999999600 ) ) ;
#206 = ADVANCED_FACE ( 'NONE', ( #40 ), #187, .F. ) ;
#207 = DIRECTION ( 'NONE',  ( -9.842402700577629600E-017, -0.0000000000000000000, -1.000000000000000000 ) ) ;
#208 = EDGE_CURVE ( 'NONE', #147, #202, #190, .T. ) ;
#209 = ORIENTED_EDGE ( 'NONE', *, *, #316, .T. ) ;
#210 = FACE_OUTER_BOUND ( 'NONE', #170, .T. ) ;
#211 = LINE ( 'NONE', #81, #162 ) ;
#212 = DIRECTION ( 'NONE',  ( 0.0000000000000000000, 0.0000000000000000000, 1.000000000000000000 ) ) ;
#213 = CARTESIAN_POINT ( 'NONE',  ( -141.0000000000000000, 0.0000000000000000000, -141.0000000000000000 ) ) ;
#214 = ORIENTED_EDGE ( 'NONE', *, *, #328, .F. ) ;
#215 = COLOUR_RGB ( '',0.7529411764705882200, 0.7529411764705882200, 0.7529411764705882200 ) ;
#216 = AXIS2_PLACEMENT_3D ( 'NONE', #58, #33, #183 ) ;
#217 = DIRECTION ( 'NONE',  ( -0.0000000000000000000, 1.000000000000000000, -0.0000000000000000000 ) ) ;
#218 = CARTESIAN_POINT ( 'NONE',  ( -141.0000000000000000, -4.000000000000000000, -141.0000000000000000 ) ) ;
#219 = ORIENTED_EDGE ( 'NONE', *, *, #80, .F. ) ;
#220 = EDGE_CURVE ( 'NONE', #79, #258, #336, .T. ) ;
#221 = PLANE ( 'NONE',  #216 ) ;
#222 = FACE_OUTER_BOUND ( 'NONE', #243, .T. ) ;
#223 = CARTESIAN_POINT ( 'NONE',  ( -141.0000000000000000, -4.000000000000000000, 141.0000000000000000 ) ) ;
#224 = DIRECTION ( 'NONE',  ( -1.000000000000000000, 0.0000000000000000000, 2.242874797222538100E-016 ) ) ;
#225 = CARTESIAN_POINT ( 'NONE',  ( -123.7500000000000600, 0.0000000000000000000, -123.7499999999999600 ) ) ;
#226 =( NAMED_UNIT ( * ) SI_UNIT ( $, .STERADIAN. ) SOLID_ANGLE_UNIT ( ) );
#227 = ADVANCED_FACE ( 'NONE', ( #275, #132 ), #12, .T. ) ;
#228 = CARTESIAN_POINT ( 'NONE',  ( 140.9999999999999700, -4.000000000000000000, -141.0000000000000000 ) ) ;
#229 = VECTOR ( 'NONE', #133, 1000.000000000000000 ) ;
#230 =( NAMED_UNIT ( * ) SI_UNIT ( $, .STERADIAN. ) SOLID_ANGLE_UNIT ( ) );
#231 = EDGE_CURVE ( 'NONE', #300, #147, #45, .T. ) ;
#232 = VECTOR ( 'NONE', #207, 1000.000000000000000 ) ;
#233 = DIRECTION ( 'NONE',  ( 1.000000000000000000, 0.0000000000000000000, 0.0000000000000000000 ) ) ;
#234 = STYLED_ITEM ( 'NONE', ( #25 ), #335 ) ;
#235 = VERTEX_POINT ( 'NONE', #279 ) ;
#236 = DIRECTION ( 'NONE',  ( -1.000000000000000000, 0.0000000000000000000, 1.121437398611269600E-016 ) ) ;
#237 = EDGE_LOOP ( 'NONE', ( #310, #331, #29, #23 ) ) ;
#238 = EDGE_CURVE ( 'NONE', #154, #31, #307, .T. ) ;
#239 = ORIENTED_EDGE ( 'NONE', *, *, #220, .F. ) ;
#240 = ORIENTED_EDGE ( 'NONE', *, *, #208, .F. ) ;
#241 = ORIENTED_EDGE ( 'NONE', *, *, #238, .F. ) ;
#242 = FILL_AREA_STYLE ('',( #159 ) ) ;
#243 = EDGE_LOOP ( 'NONE', ( #64, #214, #127, #150 ) ) ;
#244 = CARTESIAN_POINT ( 'NONE',  ( 141.0000000000000000, -4.000000000000000000, 141.0000000000000000 ) ) ;
#245 = ORIENTED_EDGE ( 'NONE', *, *, #305, .F. ) ;
#246 = CARTESIAN_POINT ( 'NONE',  ( -141.0000000000000000, 0.0000000000000000000, -141.0000000000000000 ) ) ;
#247 = DIRECTION ( 'NONE',  ( -9.842402700577629600E-017, -0.0000000000000000000, -1.000000000000000000 ) ) ;
#248 = LINE ( 'NONE', #326, #123 ) ;
#249 = DIRECTION ( 'NONE',  ( -1.121437398611269300E-016, -0.0000000000000000000, -1.000000000000000000 ) ) ;
#250 = EDGE_CURVE ( 'NONE', #153, #119, #142, .T. ) ;
#251 = CARTESIAN_POINT ( 'NONE',  ( 123.7500000000000000, -4.000000000000000000, -123.7500000000000100 ) ) ;
#252 = LINE ( 'NONE', #169, #186 ) ;
#253 = COLOUR_RGB ( '',0.7529411764705882200, 0.7529411764705882200, 0.7529411764705882200 ) ;
#254 = AXIS2_PLACEMENT_3D ( 'NONE', #218, #130, #273 ) ;
#255 = DIRECTION ( 'NONE',  ( 9.842402700577629600E-017, 0.0000000000000000000, 1.000000000000000000 ) ) ;
#256 = STYLED_ITEM ( 'NONE', ( #95 ), #34 ) ;
#257 = EDGE_CURVE ( 'NONE', #290, #154, #284, .T. ) ;
#258 = VERTEX_POINT ( 'NONE', #61 ) ;
#259 = DIRECTION ( 'NONE',  ( -0.0000000000000000000, 1.000000000000000000, -0.0000000000000000000 ) ) ;
#260 = SHAPE_DEFINITION_REPRESENTATION ( #152, #34 ) ;
#261 =( LENGTH_UNIT ( ) NAMED_UNIT ( * ) SI_UNIT ( .MILLI., .METRE. ) );
#262 = ORIENTED_EDGE ( 'NONE', *, *, #114, .F. ) ;
#263 = PLANE ( 'NONE',  #125 ) ;
#264 = ORIENTED_EDGE ( 'NONE', *, *, #136, .F. ) ;
#265 = CARTESIAN_POINT ( 'NONE',  ( -141.0000000000000000, 0.0000000000000000000, -141.0000000000000000 ) ) ;
#266 = EDGE_CURVE ( 'NONE', #258, #77, #308, .T. ) ;
#267 = ORIENTED_EDGE ( 'NONE', *, *, #305, .T. ) ;
#268 = EDGE_CURVE ( 'NONE', #153, #79, #184, .T. ) ;
#269 = PRESENTATION_LAYER_ASSIGNMENT (  '', '', ( #234 ) ) ;
#270 = PRESENTATION_LAYER_ASSIGNMENT (  '', '', ( #256 ) ) ;
#271 = LINE ( 'NONE', #195, #39 ) ;
#272 = EDGE_CURVE ( 'NONE', #31, #145, #313, .T. ) ;
#273 = DIRECTION ( 'NONE',  ( -1.000000000000000000, 0.0000000000000000000, -0.0000000000000000000 ) ) ;
#274 = ORIENTED_EDGE ( 'NONE', *, *, #22, .F. ) ;
#275 = FACE_BOUND ( 'NONE', #20, .T. ) ;
#276 = EDGE_CURVE ( 'NONE', #199, #119, #107, .T. ) ;
#277 = FACE_OUTER_BOUND ( 'NONE', #323, .T. ) ;
#278 = VECTOR ( 'NONE', #37, 1000.000000000000000 ) ;
#279 = CARTESIAN_POINT ( 'NONE',  ( 123.7500000000000300, 0.0000000000000000000, 123.7499999999999900 ) ) ;
#280 = CARTESIAN_POINT ( 'NONE',  ( 0.0000000000000000000, 0.0000000000000000000, 0.0000000000000000000 ) ) ;
#281 = DIRECTION ( 'NONE',  ( 1.000000000000000000, -0.0000000000000000000, -0.0000000000000000000 ) ) ;
#282 = DIRECTION ( 'NONE',  ( 0.0000000000000000000, 0.0000000000000000000, 1.000000000000000000 ) ) ;
#283 = VECTOR ( 'NONE', #148, 1000.000000000000000 ) ;
#284 = LINE ( 'NONE', #134, #318 ) ;
#285 = DIRECTION ( 'NONE',  ( -0.0000000000000000000, 1.000000000000000000, -0.0000000000000000000 ) ) ;
#286 = ADVANCED_FACE ( 'NONE', ( #222 ), #221, .T. ) ;
#287 = EDGE_LOOP ( 'NONE', ( #239, #178, #262, #48 ) ) ;
#288 = PRODUCT_DEFINITION_CONTEXT ( 'detailed design', #182, 'design' ) ;
#289 = VECTOR ( 'NONE', #281, 1000.000000000000000 ) ;
#290 = VERTEX_POINT ( 'NONE', #314 ) ;
#291 = VECTOR ( 'NONE', #311, 1000.000000000000000 ) ;
#292 = EDGE_CURVE ( 'NONE', #145, #290, #50, .T. ) ;
#293 = APPLICATION_PROTOCOL_DEFINITION ( 'draft international standard', 'automotive_design', 1998, #329 ) ;
#294 = DIRECTION ( 'NONE',  ( 0.0000000000000000000, -0.0000000000000000000, 1.000000000000000000 ) ) ;
#295 = MECHANICAL_DESIGN_GEOMETRIC_PRESENTATION_REPRESENTATION (  '', ( #234 ), #319 ) ;
#296 = DIRECTION ( 'NONE',  ( -0.0000000000000000000, 1.000000000000000000, -0.0000000000000000000 ) ) ;
#297 = MECHANICAL_DESIGN_GEOMETRIC_PRESENTATION_REPRESENTATION (  '', ( #256 ), #321 ) ;
#298 = FACE_BOUND ( 'NONE', #198, .T. ) ;
#299 = CARTESIAN_POINT ( 'NONE',  ( 141.0000000000000000, -4.000000000000000000, 141.0000000000000000 ) ) ;
#300 = VERTEX_POINT ( 'NONE', #56 ) ;
#301 = EDGE_CURVE ( 'NONE', #119, #5, #171, .T. ) ;
#302 = UNCERTAINTY_MEASURE_WITH_UNIT (LENGTH_MEASURE( 1.000000000000000100E-005 ), #261, 'distance_accuracy_value', 'NONE');
#303 = VECTOR ( 'NONE', #28, 1000.000000000000000 ) ;
#304 = VECTOR ( 'NONE', #65, 1000.000000000000000 ) ;
#305 = EDGE_CURVE ( 'NONE', #78, #199, #36, .T. ) ;
#306 = VECTOR ( 'NONE', #259, 1000.000000000000000 ) ;
#307 = LINE ( 'NONE', #185, #278 ) ;
#308 = LINE ( 'NONE', #223, #173 ) ;
#309 = CARTESIAN_POINT ( 'NONE',  ( 123.7500000000000300, 0.0000000000000000000, 123.7499999999999900 ) ) ;
#310 = ORIENTED_EDGE ( 'NONE', *, *, #129, .T. ) ;
#311 = DIRECTION ( 'NONE',  ( -1.000000000000000000, -0.0000000000000000000, -0.0000000000000000000 ) ) ;
#312 = CARTESIAN_POINT ( 'NONE',  ( -141.0000000000000000, 0.0000000000000000000, 141.0000000000000000 ) ) ;
#313 = LINE ( 'NONE', #83, #229 ) ;
#314 = CARTESIAN_POINT ( 'NONE',  ( 123.7500000000000300, -4.000000000000000000, 123.7499999999999900 ) ) ;
#315 = VECTOR ( 'NONE', #163, 1000.000000000000000 ) ;
#316 = EDGE_CURVE ( 'NONE', #145, #202, #176, .T. ) ;
#317 = DIRECTION ( 'NONE',  ( 0.0000000000000000000, -0.0000000000000000000, 1.000000000000000000 ) ) ;
#318 = VECTOR ( 'NONE', #249, 1000.000000000000000 ) ;
#319 =( GEOMETRIC_REPRESENTATION_CONTEXT ( 3 ) GLOBAL_UNCERTAINTY_ASSIGNED_CONTEXT ( ( #57 ) ) GLOBAL_UNIT_ASSIGNED_CONTEXT ( ( #7, #109, #226 ) ) REPRESENTATION_CONTEXT ( 'NONE', 'WORKASPACE' ) );
#320 = DIRECTION ( 'NONE',  ( 1.000000000000000000, 0.0000000000000000000, -1.121437398611269300E-016 ) ) ;
#321 =( GEOMETRIC_REPRESENTATION_CONTEXT ( 3 ) GLOBAL_UNCERTAINTY_ASSIGNED_CONTEXT ( ( #302 ) ) GLOBAL_UNIT_ASSIGNED_CONTEXT ( ( #261, #71, #230 ) ) REPRESENTATION_CONTEXT ( 'NONE', 'WORKASPACE' ) );
#322 = PLANE ( 'NONE',  #124 ) ;
#323 = EDGE_LOOP ( 'NONE', ( #18, #139, #106, #181 ) ) ;
#324 = ADVANCED_FACE ( 'NONE', ( #277 ), #200, .T. ) ;
#325 = EDGE_LOOP ( 'NONE', ( #72, #26, #43, #110 ) ) ;
#326 = CARTESIAN_POINT ( 'NONE',  ( 123.7500000000000000, 0.0000000000000000000, -123.7500000000000100 ) ) ;
#327 = FACE_OUTER_BOUND ( 'NONE', #66, .T. ) ;
#328 = EDGE_CURVE ( 'NONE', #79, #5, #211, .T. ) ;
#329 = APPLICATION_CONTEXT ( 'automotive_design' ) ;
#330 = PLANE ( 'NONE',  #167 ) ;
#331 = ORIENTED_EDGE ( 'NONE', *, *, #118, .F. ) ;
#332 = VECTOR ( 'NONE', #255, 1000.000000000000000 ) ;
#333 = CARTESIAN_POINT ( 'NONE',  ( -123.7500000000000600, -4.000000000000000000, -123.7499999999999600 ) ) ;
#334 = ORIENTED_EDGE ( 'NONE', *, *, #238, .T. ) ;
#335 = MANIFOLD_SOLID_BREP ( 'Schnitt-Linear austragen2', #122 ) ;
#336 = LINE ( 'NONE', #87, #332 ) ;
#337 = EDGE_CURVE ( 'NONE', #77, #199, #194, .T. ) ;
#338 =( GEOMETRIC_REPRESENTATION_CONTEXT ( 3 ) GLOBAL_UNCERTAINTY_ASSIGNED_CONTEXT ( ( #96 ) ) GLOBAL_UNIT_ASSIGNED_CONTEXT ( ( #13, #63, #137 ) ) REPRESENTATION_CONTEXT ( 'NONE', 'WORKASPACE' ) );
ENDSEC;
END-ISO-10303-21;
